  0
SECTION
  2
HEADER
  9
$ACADVER
  1
AC1018
  9
$ACADMAINTVER
 70
     0
  9
$DWGCODEPAGE
  3
ANSI_932
  9
$INSBASE
 10
0.0
 20
0.0
 30
0.0
  9
$EXTMIN
 10
1.000000000000000E+20
 20
1.000000000000000E+20
 30
1.000000000000000E+20
  9
$EXTMAX
 10
-1.000000000000000E+20
 20
-1.000000000000000E+20
 30
-1.000000000000000E+20
  9
$LIMMIN
 10
0.0
 20
0.0
  9
$LIMMAX
 10
12.0
 20
9.0
  9
$ORTHOMODE
 70
     0
  9
$REGENMODE
 70
     1
  9
$FILLMODE
 70
     1
  9
$QTEXTMODE
 70
     0
  9
$MIRRTEXT
 70
     1
  9
$LTSCALE
 40
1.0
  9
$ATTMODE
 70
     1
  9
$TEXTSIZE
 40
0.2
  9
$TRACEWID
 40
0.05
  9
$TEXTSTYLE
  7
Standard
  9
$CLAYER
  8
0
  9
$CELTYPE
  6
ByLayer
  9
$CECOLOR
 62
   256
  9
$CELTSCALE
 40
1.0
  9
$DISPSILH
 70
     0
  9
$DIMSCALE
 40
1.0
  9
$DIMASZ
 40
0.18
  9
$DIMEXO
 40
0.0625
  9
$DIMDLI
 40
0.38
  9
$DIMRND
 40
0.0
  9
$DIMDLE
 40
0.0
  9
$DIMEXE
 40
0.18
  9
$DIMTP
 40
0.0
  9
$DIMTM
 40
0.0
  9
$DIMTXT
 40
0.18
  9
$DIMCEN
 40
0.09
  9
$DIMTSZ
 40
0.0
  9
$DIMTOL
 70
     0
  9
$DIMLIM
 70
     0
  9
$DIMTIH
 70
     1
  9
$DIMTOH
 70
     1
  9
$DIMSE1
 70
     0
  9
$DIMSE2
 70
     0
  9
$DIMTAD
 70
     0
  9
$DIMZIN
 70
     0
  9
$DIMBLK
  1

  9
$DIMASO
 70
     1
  9
$DIMSHO
 70
     1
  9
$DIMPOST
  1

  9
$DIMAPOST
  1

  9
$DIMALT
 70
     0
  9
$DIMALTD
 70
     2
  9
$DIMALTF
 40
25.4
  9
$DIMLFAC
 40
1.0
  9
$DIMTOFL
 70
     0
  9
$DIMTVP
 40
0.0
  9
$DIMTIX
 70
     0
  9
$DIMSOXD
 70
     0
  9
$DIMSAH
 70
     0
  9
$DIMBLK1
  1

  9
$DIMBLK2
  1

  9
$DIMSTYLE
  2
Standard
  9
$DIMCLRD
 70
     0
  9
$DIMCLRE
 70
     0
  9
$DIMCLRT
 70
     0
  9
$DIMTFAC
 40
1.0
  9
$DIMGAP
 40
0.09
  9
$DIMJUST
 70
     0
  9
$DIMSD1
 70
     0
  9
$DIMSD2
 70
     0
  9
$DIMTOLJ
 70
     1
  9
$DIMTZIN
 70
     0
  9
$DIMALTZ
 70
     0
  9
$DIMALTTZ
 70
     0
  9
$DIMUPT
 70
     0
  9
$DIMDEC
 70
     4
  9
$DIMTDEC
 70
     4
  9
$DIMALTU
 70
     2
  9
$DIMALTTD
 70
     2
  9
$DIMTXSTY
  7
Standard
  9
$DIMAUNIT
 70
     0
  9
$DIMADEC
 70
     0
  9
$DIMALTRND
 40
0.0
  9
$DIMAZIN
 70
     0
  9
$DIMDSEP
 70
    46
  9
$DIMATFIT
 70
     3
  9
$DIMFRAC
 70
     0
  9
$DIMLDRBLK
  1

  9
$DIMLUNIT
 70
     2
  9
$DIMLWD
 70
    -2
  9
$DIMLWE
 70
    -2
  9
$DIMTMOVE
 70
     0
  9
$LUNITS
 70
     2
  9
$LUPREC
 70
     4
  9
$SKETCHINC
 40
0.1
  9
$FILLETRAD
 40
0.5
  9
$AUNITS
 70
     0
  9
$AUPREC
 70
     0
  9
$MENU
  1
.
  9
$ELEVATION
 40
0.0
  9
$PELEVATION
 40
0.0
  9
$THICKNESS
 40
0.0
  9
$LIMCHECK
 70
     0
  9
$CHAMFERA
 40
0.5
  9
$CHAMFERB
 40
0.5
  9
$CHAMFERC
 40
1.0
  9
$CHAMFERD
 40
0.0
  9
$SKPOLY
 70
     0
  9
$TDCREATE
 40
2457434.553194445
  9
$TDUCREATE
 40
2457434.511527778
  9
$TDUPDATE
 40
2457434.553194456
  9
$TDUUPDATE
 40
2457434.511527789
  9
$TDINDWG
 40
0.0000000116
  9
$TDUSRTIMER
 40
0.0000000116
  9
$USRTIMER
 70
     1
  9
$ANGBASE
 50
0.0
  9
$ANGDIR
 70
     0
  9
$PDMODE
 70
     0
  9
$PDSIZE
 40
0.0
  9
$PLINEWID
 40
0.0
  9
$SPLFRAME
 70
     0
  9
$SPLINETYPE
 70
     6
  9
$SPLINESEGS
 70
     8
  9
$HANDSEED
  5
58
  9
$SURFTAB1
 70
     6
  9
$SURFTAB2
 70
     6
  9
$SURFTYPE
 70
     6
  9
$SURFU
 70
     6
  9
$SURFV
 70
     6
  9
$UCSBASE
  2

  9
$UCSNAME
  2

  9
$UCSORG
 10
0.0
 20
0.0
 30
0.0
  9
$UCSXDIR
 10
1.0
 20
0.0
 30
0.0
  9
$UCSYDIR
 10
0.0
 20
1.0
 30
0.0
  9
$UCSORTHOREF
  2

  9
$UCSORTHOVIEW
 70
     0
  9
$UCSORGTOP
 10
0.0
 20
0.0
 30
0.0
  9
$UCSORGBOTTOM
 10
0.0
 20
0.0
 30
0.0
  9
$UCSORGLEFT
 10
0.0
 20
0.0
 30
0.0
  9
$UCSORGRIGHT
 10
0.0
 20
0.0
 30
0.0
  9
$UCSORGFRONT
 10
0.0
 20
0.0
 30
0.0
  9
$UCSORGBACK
 10
0.0
 20
0.0
 30
0.0
  9
$PUCSBASE
  2

  9
$PUCSNAME
  2

  9
$PUCSORG
 10
0.0
 20
0.0
 30
0.0
  9
$PUCSXDIR
 10
1.0
 20
0.0
 30
0.0
  9
$PUCSYDIR
 10
0.0
 20
1.0
 30
0.0
  9
$PUCSORTHOREF
  2

  9
$PUCSORTHOVIEW
 70
     0
  9
$PUCSORGTOP
 10
0.0
 20
0.0
 30
0.0
  9
$PUCSORGBOTTOM
 10
0.0
 20
0.0
 30
0.0
  9
$PUCSORGLEFT
 10
0.0
 20
0.0
 30
0.0
  9
$PUCSORGRIGHT
 10
0.0
 20
0.0
 30
0.0
  9
$PUCSORGFRONT
 10
0.0
 20
0.0
 30
0.0
  9
$PUCSORGBACK
 10
0.0
 20
0.0
 30
0.0
  9
$USERI1
 70
     0
  9
$USERI2
 70
     0
  9
$USERI3
 70
     0
  9
$USERI4
 70
     0
  9
$USERI5
 70
     0
  9
$USERR1
 40
0.0
  9
$USERR2
 40
0.0
  9
$USERR3
 40
0.0
  9
$USERR4
 40
0.0
  9
$USERR5
 40
0.0
  9
$WORLDVIEW
 70
     1
  9
$SHADEDGE
 70
     3
  9
$SHADEDIF
 70
    70
  9
$TILEMODE
 70
     1
  9
$MAXACTVP
 70
    64
  9
$PINSBASE
 10
0.0
 20
0.0
 30
0.0
  9
$PLIMCHECK
 70
     0
  9
$PEXTMIN
 10
1.000000000000000E+20
 20
1.000000000000000E+20
 30
1.000000000000000E+20
  9
$PEXTMAX
 10
-1.000000000000000E+20
 20
-1.000000000000000E+20
 30
-1.000000000000000E+20
  9
$PLIMMIN
 10
0.0
 20
0.0
  9
$PLIMMAX
 10
12.0
 20
9.0
  9
$UNITMODE
 70
     0
  9
$VISRETAIN
 70
     1
  9
$PLINEGEN
 70
     0
  9
$PSLTSCALE
 70
     1
  9
$TREEDEPTH
 70
  3020
  9
$CMLSTYLE
  2
Standard
  9
$CMLJUST
 70
     0
  9
$CMLSCALE
 40
1.0
  9
$PROXYGRAPHICS
 70
     1
  9
$MEASUREMENT
 70
     0
  9
$CELWEIGHT
370
    -1
  9
$ENDCAPS
280
     0
  9
$JOINSTYLE
280
     0
  9
$LWDISPLAY
290
     1
  9
$INSUNITS
 70
     1
  9
$HYPERLINKBASE
  1

  9
$STYLESHEET
  1

  9
$XEDIT
290
     1
  9
$CEPSNTYPE
380
     0
  9
$PSTYLEMODE
290
     1
  9
$FINGERPRINTGUID
  2
{F958B13B-C0FE-6A21-3D40-635B5874C7F3}
  9
$VERSIONGUID
  2
{FAEB1C32-E019-11D5-929B-00C0DF256EC4}
  9
$EXTNAMES
290
     1
  9
$PSVPSCALE
 40
0.0
  9
$OLESTARTUP
290
     0
  9
$SORTENTS
280
   127
  9
$INDEXCTL
280
     0
  9
$HIDETEXT
280
     1
  9
$XCLIPFRAME
290
     0
  9
$HALOGAP
280
     0
  9
$OBSCOLOR
 70
   257
  9
$OBSLTYPE
280
     0
  9
$INTERSECTIONDISPLAY
280
     0
  9
$INTERSECTIONCOLOR
 70
   257
  9
$DIMASSOC
280
     2
  9
$PROJECTNAME
  1

  0
ENDSEC
  0
SECTION
  2
CLASSES
  0
CLASS
  1
ACDBDICTIONARYWDFLT
  2
AcDbDictionaryWithDefault
  3
ObjectDBX Classes
 90
        0
 91
        3
280
     0
281
     0
  0
CLASS
  1
VISUALSTYLE
  2
AcDbVisualStyle
  3
ObjectDBX Classes
 90
     4095
 91
        3
280
     0
281
     0
  0
ENDSEC
  0
SECTION
  2
TABLES
  0
TABLE
  2
VPORT
  5
8
330
0
100
AcDbSymbolTable
 70
     1
  0
VPORT
  5
29
330
8
100
AcDbSymbolTableRecord
100
AcDbViewportTableRecord
  2
*Active
 70
     0
 10
0.0
 20
0.0
 11
1.0
 21
1.0
 12
0.0
 22
0.0
 13
0.0
 23
0.0
 14
0.5
 24
0.5
 15
0.5
 25
0.5
 16
0.0
 26
0.0
 36
1.0
 17
179.9995211681078
 27
-119.9990491778996
 37
0.0
 40
239.9980983557991
 41
1.500007895073044
 42
50.0
 43
0.0
 44
0.0
 50
0.0
 51
0.0
 71
     0
 72
   100
 73
     1
 74
     3
 75
     0
 76
     0
 77
     0
 78
     0
281
     0
 65
     1
110
0.0
120
0.0
130
0.0
111
1.0
121
0.0
131
0.0
112
0.0
122
1.0
132
0.0
 79
     0
146
0.0
  0
ENDTAB
  0
TABLE
  2
LTYPE
  5
5
330
0
100
AcDbSymbolTable
 70
     1
  0
LTYPE
  5
14
330
5
100
AcDbSymbolTableRecord
100
AcDbLinetypeTableRecord
  2
ByBlock
 70
     0
  3

 72
    65
 73
     0
 40
0.0
  0
LTYPE
  5
15
330
5
100
AcDbSymbolTableRecord
100
AcDbLinetypeTableRecord
  2
ByLayer
 70
     0
  3

 72
    65
 73
     0
 40
0.0
  0
LTYPE
  5
16
330
5
100
AcDbSymbolTableRecord
100
AcDbLinetypeTableRecord
  2
Continuous
 70
     0
  3
Solid line
 72
    65
 73
     0
 40
0.0
  0
ENDTAB
  0
TABLE
  2
LAYER
  5
2
330
0
100
AcDbSymbolTable
 70
     2
  0
LAYER
  5
10
330
2
100
AcDbSymbolTableRecord
100
AcDbLayerTableRecord
  2
0
 70
     0
 62
     7
  6
Continuous
370
    -3
390
F
  0
LAYER
  5
3B
330
2
100
AcDbSymbolTableRecord
100
AcDbLayerTableRecord
  2
Layer 1
 70
     0
 62
     7
  6
Continuous
370
    -3
390
F
  0
ENDTAB
  0
TABLE
  2
STYLE
  5
3
330
0
100
AcDbSymbolTable
 70
     1
  0
STYLE
  5
11
330
3
100
AcDbSymbolTableRecord
100
AcDbTextStyleTableRecord
  2
Standard
 70
     0
 40
0.0
 41
1.0
 50
0.0
 71
     0
 42
0.2
  3
txt
  4

  0
ENDTAB
  0
TABLE
  2
VIEW
  5
6
330
0
100
AcDbSymbolTable
 70
     0
  0
ENDTAB
  0
TABLE
  2
UCS
  5
7
330
0
100
AcDbSymbolTable
 70
     0
  0
ENDTAB
  0
TABLE
  2
APPID
  5
9
330
0
100
AcDbSymbolTable
 70
     1
  0
APPID
  5
12
330
9
100
AcDbSymbolTableRecord
100
AcDbRegAppTableRecord
  2
ACAD
 70
     0
  0
ENDTAB
  0
TABLE
  2
DIMSTYLE
  5
A
330
0
100
AcDbSymbolTable
 70
     1
100
AcDbDimStyleTable
  0
DIMSTYLE
105
27
330
A
100
AcDbSymbolTableRecord
100
AcDbDimStyleTableRecord
  2
Standard
 70
     0
340
11
  0
ENDTAB
  0
TABLE
  2
BLOCK_RECORD
  5
1
330
0
100
AcDbSymbolTable
 70
     2
  0
BLOCK_RECORD
  5
1F
330
1
100
AcDbSymbolTableRecord
100
AcDbBlockTableRecord
  2
*Model_Space
340
22
  0
BLOCK_RECORD
  5
1B
330
1
100
AcDbSymbolTableRecord
100
AcDbBlockTableRecord
  2
*Paper_Space
340
1E
  0
BLOCK_RECORD
  5
23
330
1
100
AcDbSymbolTableRecord
100
AcDbBlockTableRecord
  2
*Paper_Space0
340
26
  0
BLOCK_RECORD
  5
3C
330
1
100
AcDbSymbolTableRecord
100
AcDbBlockTableRecord
  2
block 2
340
0
102
{BLKREFS
331
3D
102
}
  0
ENDTAB
  0
ENDSEC
  0
SECTION
  2
BLOCKS
  0
BLOCK
  5
20
330
1F
100
AcDbEntity
  8
0
100
AcDbBlockBegin
  2
*Model_Space
 70
     0
 71
     0
 10
0.0
 20
0.0
 30
0.0
  3
*Model_Space
  1

  0
ENDBLK
  5
21
330
1F
100
AcDbEntity
  8
0
100
AcDbBlockEnd
  0
BLOCK
  5
1C
330
1B
100
AcDbEntity
 67
     1
  8
0
100
AcDbBlockBegin
  2
*Paper_Space
 70
     0
 71
     0
 10
0.0
 20
0.0
 30
0.0
  3
*Paper_Space
  1

  0
ENDBLK
  5
1D
330
1B
100
AcDbEntity
 67
     1
  8
0
100
AcDbBlockEnd
  0
BLOCK
  5
24
330
23
100
AcDbEntity
  8
0
100
AcDbBlockBegin
  2
*Paper_Space0
 70
     0
 71
     0
 10
0.0
 20
0.0
 30
0.0
  3
*Paper_Space0
  1

  0
ENDBLK
  5
25
330
23
100
AcDbEntity
  8
0
100
AcDbBlockEnd
  0
BLOCK
  5
3E
330
3C
100
AcDbEntity
  8
0
100
AcDbBlockBegin
  2
block 2
 70
     0
 71
     0
 10
0.0
 20
0.0
 30
0.0
  3
block 2
  1

  0
POLYLINE
  5
40
330
3C
100
AcDbEntity
  8
Layer 1
370
     0
100
AcDb2dPolyline
 66
     1
 10
0.0
 20
0.0
 30
0.0
  0
VERTEX
  5
41
330
40
100
AcDbEntity
  8
Layer 1
370
     0
100
AcDbVertex
100
AcDb2dVertex
 10
127.2339219516985
 20
-138.8683539149357
 30
0.0
  0
VERTEX
  5
42
330
40
100
AcDbEntity
  8
Layer 1
370
     0
100
AcDbVertex
100
AcDb2dVertex
 10
126.1545735361697
 20
-134.8499945409403
 30
0.0
  0
VERTEX
  5
43
330
40
100
AcDbEntity
  8
Layer 1
370
     0
100
AcDbVertex
100
AcDb2dVertex
 10
121.2067274002539
 20
-134.8499945409403
 30
0.0
  0
VERTEX
  5
44
330
40
100
AcDbEntity
  8
Layer 1
370
     0
100
AcDbVertex
100
AcDb2dVertex
 10
120.0670898137332
 20
-138.8683539149357
 30
0.0
  0
VERTEX
  5
45
330
40
100
AcDbEntity
  8
Layer 1
370
     0
100
AcDbVertex
100
AcDb2dVertex
 10
114.4298800712189
 20
-138.8683539149357
 30
0.0
  0
VERTEX
  5
46
330
40
100
AcDbEntity
  8
Layer 1
370
     0
100
AcDbVertex
100
AcDb2dVertex
 10
121.1467827388105
 20
-117.9678208797962
 30
0.0
  0
VERTEX
  5
47
330
40
100
AcDbEntity
  8
Layer 1
370
     0
100
AcDbVertex
100
AcDb2dVertex
 10
126.72439232943
 20
-117.9678208797962
 30
0.0
  0
VERTEX
  5
48
330
40
100
AcDbEntity
  8
Layer 1
370
     0
100
AcDbVertex
100
AcDb2dVertex
 10
133.0513101880913
 20
-138.8683539149357
 30
0.0
  0
VERTEX
  5
49
330
40
100
AcDbEntity
  8
Layer 1
370
     0
100
AcDbVertex
100
AcDb2dVertex
 10
127.2339219516985
 20
-138.8683539149357
 30
0.0
  0
SEQEND
  5
4A
330
40
100
AcDbEntity
  8
Layer 1
370
     0
  0
SPLINE
  5
4B
330
3C
100
AcDbEntity
  8
Layer 1
370
     0
100
AcDbSpline
210
0.0
220
0.0
230
1.0
 70
    11
 71
     3
 72
    26
 73
    22
 74
     0
 42
0.0000000001
 43
0.0000000001
 40
0.0
 40
0.0
 40
0.0
 40
0.0
 40
1.0
 40
1.0
 40
1.0
 40
2.0
 40
2.0
 40
2.0
 40
3.0
 40
3.0
 40
3.0
 40
4.0
 40
4.0
 40
4.0
 40
5.0
 40
5.0
 40
5.0
 40
6.0
 40
6.0
 40
6.0
 40
7.0
 40
7.0
 40
7.0
 40
7.0
 10
124.1753661798937
 20
-126.903537294663
 30
0.0
 10
124.0751139012729
 20
-126.4439615569307
 30
0.0
 10
123.9903645523357
 20
-125.9492458452488
 30
0.0
 10
123.9204291139852
 20
-125.4193901596174
 30
0.0
 10
123.8501491660861
 20
-124.890223493083
 30
0.0
 10
123.8050184152293
 20
-124.4251356025743
 30
0.0
 10
123.7857258805119
 20
-124.0248155071883
 30
0.0
 10
123.745073753786
 20
-124.4251356025743
 30
0.0
 10
123.6806504682118
 20
-124.8943576076653
 30
0.0
 10
123.5907334760468
 20
-125.4345485797525
 30
0.0
 10
123.5004719743332
 20
-125.9740505327426
 30
0.0
 10
123.3757595177672
 20
-126.5941677200876
 30
0.0
 10
123.2159070872516
 20
-127.2935221035933
 30
0.0
 10
123.2159070872516
 20
-127.2935221035933
 30
0.0
 10
122.3759928079477
 20
-130.7117458440582
 30
0.0
 10
122.3759928079477
 20
-130.7117458440582
 30
0.0
 10
122.3759928079477
 20
-130.7117458440582
 30
0.0
 10
125.0748806110924
 20
-130.7117458440582
 30
0.0
 10
125.0748806110924
 20
-130.7117458440582
 30
0.0
 10
125.0748806110924
 20
-130.7117458440582
 30
0.0
 10
124.1753661798937
 20
-126.903537294663
 30
0.0
 10
124.1753661798937
 20
-126.903537294663
 30
0.0
  0
SPLINE
  5
4C
330
3C
100
AcDbEntity
  8
Layer 1
370
     0
100
AcDbSpline
210
0.0
220
0.0
230
1.0
 70
    11
 71
     3
 72
    74
 73
    70
 74
     0
 42
0.0000000001
 43
0.0000000001
 40
0.0
 40
0.0
 40
0.0
 40
0.0
 40
1.0
 40
1.0
 40
1.0
 40
2.0
 40
2.0
 40
2.0
 40
3.0
 40
3.0
 40
3.0
 40
4.0
 40
4.0
 40
4.0
 40
5.0
 40
5.0
 40
5.0
 40
6.0
 40
6.0
 40
6.0
 40
7.0
 40
7.0
 40
7.0
 40
8.0
 40
8.0
 40
8.0
 40
9.0
 40
9.0
 40
9.0
 40
10.0
 40
10.0
 40
10.0
 40
11.0
 40
11.0
 40
11.0
 40
12.0
 40
12.0
 40
12.0
 40
13.0
 40
13.0
 40
13.0
 40
14.0
 40
14.0
 40
14.0
 40
15.0
 40
15.0
 40
15.0
 40
16.0
 40
16.0
 40
16.0
 40
17.0
 40
17.0
 40
17.0
 40
18.0
 40
18.0
 40
18.0
 40
19.0
 40
19.0
 40
19.0
 40
20.0
 40
20.0
 40
20.0
 40
21.0
 40
21.0
 40
21.0
 40
22.0
 40
22.0
 40
22.0
 40
23.0
 40
23.0
 40
23.0
 40
23.0
 10
142.706190285504
 20
-138.8683539149357
 30
0.0
 10
142.706190285504
 20
-138.8683539149357
 30
0.0
 10
142.706190285504
 20
-128.9726616431041
 30
0.0
 10
142.706190285504
 20
-128.9726616431041
 30
0.0
 10
142.706190285504
 20
-128.5530490130006
 30
0.0
 10
142.6765624643309
 20
-128.2285210182901
 30
0.0
 10
142.616273293339
 20
-127.9983886398754
 30
0.0
 10
142.5563286318956
 20
-127.7689452805578
 30
0.0
 10
142.4664116397306
 20
-127.6035806972658
 30
0.0
 10
142.3465223168439
 20
-127.5036729281935
 30
0.0
 10
142.2266329939572
 20
-127.4037651591213
 30
0.0
 10
142.0864176077076
 20
-127.3438204976779
 30
0.0
 10
141.9269096867405
 20
-127.3238389438635
 30
0.0
 10
141.7663682371279
 20
-127.303857390049
 30
0.0
 10
141.5968695392536
 20
-127.2935221035933
 30
0.0
 10
141.4170355549235
 20
-127.2935221035933
 30
0.0
 10
141.2168755072305
 20
-127.2935221035933
 30
0.0
 10
140.9719292182292
 20
-127.3638020514924
 30
0.0
 10
140.6821966879197
 20
-127.5036729281935
 30
0.0
 10
140.3924641576102
 20
-127.6435438048947
 30
0.0
 10
140.0675916533512
 20
-127.8736761833094
 30
0.0
 10
139.7075791751426
 20
-128.1933810443406
 30
0.0
 10
139.7075791751426
 20
-128.1933810443406
 30
0.0
 10
139.7075791751426
 20
-138.8683539149357
 30
0.0
 10
139.7075791751426
 20
-138.8683539149357
 30
0.0
 10
139.7075791751426
 20
-138.8683539149357
 30
0.0
 10
134.4903265722802
 20
-138.8683539149357
 30
0.0
 10
134.4903265722802
 20
-138.8683539149357
 30
0.0
 10
134.4903265722802
 20
-138.8683539149357
 30
0.0
 10
134.4903265722802
 20
-129.0326063045474
 30
0.0
 10
134.4903265722802
 20
-129.0326063045474
 30
0.0
 10
134.4903265722802
 20
-128.0934732752683
 30
0.0
 10
134.46000973201
 20
-127.2032606018797
 30
0.0
 10
134.4000650705667
 20
-126.3640353416729
 30
0.0
 10
134.3401204091233
 20
-125.524121062369
 30
0.0
 10
134.2098957997809
 20
-124.6848958021621
 30
0.0
 10
134.0104247711849
 20
-123.8449815228582
 30
0.0
 10
134.0104247711849
 20
-123.8449815228582
 30
0.0
 10
138.8080647439438
 20
-123.0353840838245
 30
0.0
 10
138.8080647439438
 20
-123.0353840838245
 30
0.0
 10
138.8680094053872
 20
-123.2152180681545
 30
0.0
 10
138.928298576379
 20
-123.4405273128899
 30
0.0
 10
138.9882432378224
 20
-123.7099337798364
 30
0.0
 10
139.0481878992657
 20
-123.98002926588
 30
0.0
 10
139.0878064973461
 20
-124.2349663317885
 30
0.0
 10
139.1081325607091
 20
-124.4747449775619
 30
0.0
 10
139.6276529598848
 20
-124.0950954550873
 30
0.0
 10
140.2474256376812
 20
-123.7554090402417
 30
0.0
 10
140.9671060845499
 20
-123.4549967139279
 30
0.0
 10
141.6867865314186
 20
-123.1552734067112
 30
0.0
 10
142.5563286318956
 20
-123.0057562626513
 30
0.0
 10
143.5757323859811
 20
-123.0057562626513
 30
0.0
 10
144.4755913267283
 20
-123.0057562626513
 30
0.0
 10
145.2100856841836
 20
-123.125645585538
 30
0.0
 10
145.7799044774439
 20
-123.3654242313114
 30
0.0
 10
146.3497232707042
 20
-123.6052028770848
 30
0.0
 10
146.7941405883015
 20
-123.9255967572131
 30
0.0
 10
147.1141899588812
 20
-124.325227833502
 30
0.0
 10
147.4338948199124
 20
-124.724858909791
 30
0.0
 10
147.648868778192
 20
-125.179611513844
 30
0.0
 10
147.7587673241714
 20
-125.689485645661
 30
0.0
 10
147.8686658701509
 20
-126.1993597774779
 30
0.0
 10
147.9241319074634
 20
-126.723703310333
 30
0.0
 10
147.9241319074634
 20
-127.2638942824201
 30
0.0
 10
147.9241319074634
 20
-127.2638942824201
 30
0.0
 10
147.9241319074634
 20
-138.8683539149357
 30
0.0
 10
147.9241319074634
 20
-138.8683539149357
 30
0.0
 10
147.9241319074634
 20
-138.8683539149357
 30
0.0
 10
142.706190285504
 20
-138.8683539149357
 30
0.0
 10
142.706190285504
 20
-138.8683539149357
 30
0.0
  0
SPLINE
  5
4D
330
3C
100
AcDbEntity
  8
Layer 1
370
     0
100
AcDbSpline
210
0.0
220
0.0
230
1.0
 70
    11
 71
     3
 72
    95
 73
    91
 74
     0
 42
0.0000000001
 43
0.0000000001
 40
0.0
 40
0.0
 40
0.0
 40
0.0
 40
1.0
 40
1.0
 40
1.0
 40
2.0
 40
2.0
 40
2.0
 40
3.0
 40
3.0
 40
3.0
 40
4.0
 40
4.0
 40
4.0
 40
5.0
 40
5.0
 40
5.0
 40
6.0
 40
6.0
 40
6.0
 40
7.0
 40
7.0
 40
7.0
 40
8.0
 40
8.0
 40
8.0
 40
9.0
 40
9.0
 40
9.0
 40
10.0
 40
10.0
 40
10.0
 40
11.0
 40
11.0
 40
11.0
 40
12.0
 40
12.0
 40
12.0
 40
13.0
 40
13.0
 40
13.0
 40
14.0
 40
14.0
 40
14.0
 40
15.0
 40
15.0
 40
15.0
 40
16.0
 40
16.0
 40
16.0
 40
17.0
 40
17.0
 40
17.0
 40
18.0
 40
18.0
 40
18.0
 40
19.0
 40
19.0
 40
19.0
 40
20.0
 40
20.0
 40
20.0
 40
21.0
 40
21.0
 40
21.0
 40
22.0
 40
22.0
 40
22.0
 40
23.0
 40
23.0
 40
23.0
 40
24.0
 40
24.0
 40
24.0
 40
25.0
 40
25.0
 40
25.0
 40
26.0
 40
26.0
 40
26.0
 40
27.0
 40
27.0
 40
27.0
 40
28.0
 40
28.0
 40
28.0
 40
29.0
 40
29.0
 40
29.0
 40
30.0
 40
30.0
 40
30.0
 40
30.0
 10
223.0354817150745
 20
-139.4981173696394
 30
0.0
 10
222.6554876830514
 20
-139.3782280467527
 30
0.0
 10
222.270670517349
 20
-139.1529188020173
 30
0.0
 10
221.8810302179673
 20
-138.8228786545304
 30
0.0
 10
221.491045409037
 20
-138.4935275261405
 30
0.0
 10
221.236452852677
 20
-138.2082736199618
 30
0.0
 10
221.1162190202418
 20
-137.9684949741884
 30
0.0
 10
220.7362249882187
 20
-138.2888888543167
 30
0.0
 10
220.2263508564018
 20
-138.583100008757
 30
0.0
 10
219.5869411343394
 20
-138.8531954948006
 30
0.0
 10
218.94684239318
 20
-139.1232909808442
 30
0.0
 10
218.1675617944165
 20
-139.258338723866
 30
0.0
 10
217.2480658094033
 20
-139.258338723866
 30
0.0
 10
216.2886067167612
 20
-139.258338723866
 30
0.0
 10
215.4738416344996
 20
-139.1232909808442
 30
0.0
 10
214.8044595817155
 20
-138.8531954948006
 30
0.0
 10
214.1340440002859
 20
-138.583100008757
 30
0.0
 10
213.5845512703886
 20
-138.2234320400969
 30
0.0
 10
213.1549478633779
 20
-137.7735025697233
 30
0.0
 10
212.7249999468188
 20
-137.3235730993497
 30
0.0
 10
212.4149413531463
 20
-136.7944064328153
 30
0.0
 10
212.2254611014575
 20
-136.1846245319261
 30
0.0
 10
212.0352918306718
 20
-135.5748426310369
 30
0.0
 10
211.9405517048274
 20
-134.9202744888394
 30
0.0
 10
211.9405517048274
 20
-134.2202310862366
 30
0.0
 10
211.9405517048274
 20
-133.480913595102
 30
0.0
 10
212.0952364921151
 20
-132.8063638990901
 30
0.0
 10
212.4052950857876
 20
-132.1965819982009
 30
0.0
 10
212.7150091699115
 20
-131.5868000973117
 30
0.0
 10
213.1645941307366
 20
-131.0569444116802
 30
0.0
 10
213.7547389873599
 20
-130.6070149413066
 30
0.0
 10
214.3441948248862
 20
-130.157085470933
 30
0.0
 10
215.0638752717549
 20
-129.8077527887286
 30
0.0
 10
215.913780327966
 20
-129.5576388564995
 30
0.0
 10
216.7633408746286
 20
-129.3075249242704
 30
0.0
 10
217.7279676104986
 20
-129.1828124677043
 30
0.0
 10
218.8073160260273
 20
-129.1828124677043
 30
0.0
 10
218.9072237950996
 20
-129.1828124677043
 30
0.0
 10
219.057085448708
 20
-129.1828124677043
 30
0.0
 10
219.257245496401
 20
-129.1828124677043
 30
0.0
 10
219.4567165249969
 20
-129.1828124677043
 30
0.0
 10
219.5969319112466
 20
-129.1931477541601
 30
0.0
 10
219.6772026360529
 20
-129.2124402888774
 30
0.0
 10
219.6772026360529
 20
-129.2124402888774
 30
0.0
 10
219.6772026360529
 20
-128.2533257057839
 30
0.0
 10
219.6772026360529
 20
-128.2533257057839
 30
0.0
 10
219.6772026360529
 20
-127.7937499680516
 30
0.0
 10
219.6117458218332
 20
-127.4389051330708
 30
0.0
 10
219.4822102315878
 20
-127.1887912008417
 30
0.0
 10
219.3519856222453
 20
-126.9386772686126
 30
0.0
 10
218.9971407872646
 20
-126.8139648120465
 30
0.0
 10
218.4176757266456
 20
-126.8139648120465
 30
0.0
 10
217.5377983397128
 20
-126.8139648120465
 30
0.0
 10
216.7481824544935
 20
-126.9593478415241
 30
0.0
 10
216.0488280709878
 20
-127.248735862285
 30
0.0
 10
215.348784668385
 20
-127.5388129021431
 30
0.0
 10
214.6694118386938
 20
-127.9336208447527
 30
0.0
 10
214.0096760532684
 20
-128.4331596901139
 30
0.0
 10
214.0096760532684
 20
-128.4331596901139
 30
0.0
 10
212.1203856891574
 20
-125.1947699339791
 30
0.0
 10
212.1203856891574
 20
-125.1947699339791
 30
0.0
 10
213.0798447817995
 20
-124.614615854263
 30
0.0
 10
214.1595377068768
 20
-124.1054307415431
 30
0.0
 10
215.3591199548408
 20
-123.6651475385282
 30
0.0
 10
216.5583576932563
 20
-123.2255533546103
 30
0.0
 10
217.7975585393006
 20
-123.0057562626513
 30
0.0
 10
219.0770670025224
 20
-123.0057562626513
 30
0.0
 10
220.5563910038887
 20
-123.0057562626513
 30
0.0
 10
221.7856010730258
 20
-123.2455349084247
 30
0.0
 10
222.7653862290309
 20
-123.7250921999715
 30
0.0
 10
223.7448268754874
 20
-124.2046494915183
 30
0.0
 10
224.3742458206426
 20
-124.9046928941211
 30
0.0
 10
224.6546765931419
 20
-125.8245333886828
 30
0.0
 10
224.7545843622141
 20
-126.1642198035284
 30
0.0
 10
224.8193521573369
 20
-126.503906218374
 30
0.0
 10
224.849668997607
 20
-126.8435926332197
 30
0.0
 10
224.8796413283287
 20
-127.1839680671624
 30
0.0
 10
224.8944552389153
 20
-127.6435438048947
 30
0.0
 10
224.8944552389153
 20
-128.2230088655137
 30
0.0
 10
224.8944552389153
 20
-128.2230088655137
 30
0.0
 10
224.8345105774719
 20
-133.5608398103598
 30
0.0
 10
224.8345105774719
 20
-133.5608398103598
 30
0.0
 10
224.8345105774719
 20
-134.2009385515192
 30
0.0
 10
224.8992783725946
 20
-134.7804036121382
 30
0.0
 10
225.0295029819371
 20
-135.2999240113139
 30
0.0
 10
225.1590385721825
 20
-135.8201334295866
 30
0.0
 10
225.4942463628973
 20
-136.2493923270488
 30
0.0
 10
226.0340928254359
 20
-136.5890787418944
 30
0.0
 10
226.0340928254359
 20
-136.5890787418944
 30
0.0
 10
223.0354817150745
 20
-139.4981173696394
 30
0.0
 10
223.0354817150745
 20
-139.4981173696394
 30
0.0
  0
SPLINE
  5
4E
330
3C
100
AcDbEntity
  8
Layer 1
370
     0
100
AcDbSpline
210
0.0
220
0.0
230
1.0
 70
    11
 71
     3
 72
    32
 73
    28
 74
     0
 42
0.0000000001
 43
0.0000000001
 40
0.0
 40
0.0
 40
0.0
 40
0.0
 40
1.0
 40
1.0
 40
1.0
 40
2.0
 40
2.0
 40
2.0
 40
3.0
 40
3.0
 40
3.0
 40
4.0
 40
4.0
 40
4.0
 40
5.0
 40
5.0
 40
5.0
 40
6.0
 40
6.0
 40
6.0
 40
7.0
 40
7.0
 40
7.0
 40
8.0
 40
8.0
 40
8.0
 40
9.0
 40
9.0
 40
9.0
 40
9.0
 10
219.6772026360529
 20
-132.4508300450123
 30
0.0
 10
219.1370116639658
 20
-132.4315375102949
 30
0.0
 10
218.6919053272715
 20
-132.4659884651474
 30
0.0
 10
218.3425726450672
 20
-132.5562499668609
 30
0.0
 10
217.9925509437658
 20
-132.6458224494774
 30
0.0
 10
217.7176323240428
 20
-132.7760470588199
 30
0.0
 10
217.5178167858983
 20
-132.9462347757912
 30
0.0
 10
217.3180012477538
 20
-133.1157334736655
 30
0.0
 10
217.182953504732
 20
-133.3059027444513
 30
0.0
 10
217.11336257593
 20
-133.5153645499545
 30
0.0
 10
217.0430826280309
 20
-133.7255153745547
 30
0.0
 10
217.0082871636299
 20
-133.9404893328343
 30
0.0
 10
217.0082871636299
 20
-134.1602864247933
 30
0.0
 10
217.0082871636299
 20
-134.6205511816227
 30
0.0
 10
217.1326551106474
 20
-134.9850422839621
 30
0.0
 10
217.3831135524251
 20
-135.2551377700057
 30
0.0
 10
217.6328829751057
 20
-135.5245442369522
 30
0.0
 10
217.9873833005379
 20
-135.659591979974
 30
0.0
 10
218.4473035478187
 20
-135.659591979974
 30
0.0
 10
218.6671006397777
 20
-135.659591979974
 30
0.0
 10
218.9020561518717
 20
-135.605159471307
 30
0.0
 10
219.1521700841008
 20
-135.494916415779
 30
0.0
 10
219.4019395067815
 20
-135.3853623793481
 30
0.0
 10
219.5766058478836
 20
-135.2696071710437
 30
0.0
 10
219.6772026360529
 20
-135.149717848157
 30
0.0
 10
219.6772026360529
 20
-135.149717848157
 30
0.0
 10
219.6772026360529
 20
-132.4508300450123
 30
0.0
 10
219.6772026360529
 20
-132.4508300450123
 30
0.0
  0
SPLINE
  5
4F
330
3C
100
AcDbEntity
  8
Layer 1
370
     0
100
AcDbSpline
210
0.0
220
0.0
230
1.0
 70
    11
 71
     3
 72
    77
 73
    73
 74
     0
 42
0.0000000001
 43
0.0000000001
 40
0.0
 40
0.0
 40
0.0
 40
0.0
 40
1.0
 40
1.0
 40
1.0
 40
2.0
 40
2.0
 40
2.0
 40
3.0
 40
3.0
 40
3.0
 40
4.0
 40
4.0
 40
4.0
 40
5.0
 40
5.0
 40
5.0
 40
6.0
 40
6.0
 40
6.0
 40
7.0
 40
7.0
 40
7.0
 40
8.0
 40
8.0
 40
8.0
 40
9.0
 40
9.0
 40
9.0
 40
10.0
 40
10.0
 40
10.0
 40
11.0
 40
11.0
 40
11.0
 40
12.0
 40
12.0
 40
12.0
 40
13.0
 40
13.0
 40
13.0
 40
14.0
 40
14.0
 40
14.0
 40
15.0
 40
15.0
 40
15.0
 40
16.0
 40
16.0
 40
16.0
 40
17.0
 40
17.0
 40
17.0
 40
18.0
 40
18.0
 40
18.0
 40
19.0
 40
19.0
 40
19.0
 40
20.0
 40
20.0
 40
20.0
 40
21.0
 40
21.0
 40
21.0
 40
22.0
 40
22.0
 40
22.0
 40
23.0
 40
23.0
 40
23.0
 40
24.0
 40
24.0
 40
24.0
 40
24.0
 10
244.1153319702212
 20
-138.8683539149357
 30
0.0
 10
244.0347167358663
 20
-138.6885199306057
 30
0.0
 10
243.9802842271994
 20
-138.5231553473137
 30
0.0
 10
243.9499673869292
 20
-138.3736382032538
 30
0.0
 10
243.920339565756
 20
-138.2234320400969
 30
0.0
 10
243.8948458591652
 20
-138.0787380297164
 30
0.0
 10
243.8752088148993
 20
-137.9388671530153
 30
0.0
 10
243.5151963366907
 20
-138.3584797831187
 30
0.0
 10
243.0604437326377
 20
-138.6836967969263
 30
0.0
 10
242.5106064931918
 20
-138.9131401562439
 30
0.0
 10
241.9607692537459
 20
-139.1425835155616
 30
0.0
 10
241.2965548441898
 20
-139.258338723866
 30
0.0
 10
240.5165852263292
 20
-139.258338723866
 30
0.0
 10
238.5177408257872
 20
-139.258338723866
 30
0.0
 10
236.983295296657
 20
-138.5734537413983
 30
0.0
 10
235.9139376580354
 20
-137.203683776463
 30
0.0
 10
234.8442355098653
 20
-135.8346028306247
 30
0.0
 10
234.3095566905546
 20
-133.9108615116612
 30
0.0
 10
234.3095566905546
 20
-131.4317708004754
 30
0.0
 10
234.3095566905546
 20
-130.2921332139547
 30
0.0
 10
234.4394367903485
 20
-129.2124402888774
 30
0.0
 10
234.6991969899363
 20
-128.1933810443406
 30
0.0
 10
234.9589571895242
 20
-127.1736327807066
 30
0.0
 10
235.363755909041
 20
-126.2792859927357
 30
0.0
 10
235.9139376580354
 20
-125.5096516613309
 30
0.0
 10
236.4634303879328
 20
-124.7400173299261
 30
0.0
 10
237.1583061473077
 20
-124.1302354290369
 30
0.0
 10
237.9978759170631
 20
-123.6803059586633
 30
0.0
 10
238.8374456868184
 20
-123.2303764882896
 30
0.0
 10
239.8268771101822
 20
-123.0057562626513
 30
0.0
 10
240.9665146967028
 20
-123.0057562626513
 30
0.0
 10
241.3461642191774
 20
-123.0057562626513
 30
0.0
 10
241.7313258944283
 20
-123.0608777904153
 30
0.0
 10
242.12096619381
 20
-123.1704318268463
 30
0.0
 10
242.5106064931918
 20
-123.2806748823743
 30
0.0
 10
242.8151529340879
 20
-123.4053873389403
 30
0.0
 10
243.0356390451439
 20
-123.5452582156415
 30
0.0
 10
243.0156574913294
 20
-123.4253688927548
 30
0.0
 10
242.9953314279664
 20
-123.2710286150156
 30
0.0
 10
242.9756943837005
 20
-123.0801703251327
 30
0.0
 10
242.9557128298861
 20
-122.890690073444
 30
0.0
 10
242.9353867665231
 20
-122.6805392488438
 30
0.0
 10
242.9157497222572
 20
-122.4510958895261
 30
0.0
 10
242.8954236588942
 20
-122.2209635111114
 30
0.0
 10
242.8806097483076
 20
-121.9860079990174
 30
0.0
 10
242.8706189714004
 20
-121.746229353244
 30
0.0
 10
242.8602836849447
 20
-121.5064507074706
 30
0.0
 10
242.8558050608139
 20
-121.2866536155117
 30
0.0
 10
242.8558050608139
 20
-121.0861490582701
 30
0.0
 10
242.8558050608139
 20
-121.0861490582701
 30
0.0
 10
242.8558050608139
 20
-116.9184447949891
 30
0.0
 10
242.8558050608139
 20
-116.9184447949891
 30
0.0
 10
242.8558050608139
 20
-116.9184447949891
 30
0.0
 10
248.0730576636762
 20
-117.6081529111362
 30
0.0
 10
248.0730576636762
 20
-117.6081529111362
 30
0.0
 10
248.0730576636762
 20
-117.6081529111362
 30
0.0
 10
248.0730576636762
 20
-132.7209255310559
 30
0.0
 10
248.0730576636762
 20
-132.7209255310559
 30
0.0
 10
248.0730576636762
 20
-133.7007106870609
 30
0.0
 10
248.0830484405834
 20
-134.515820278871
 30
0.0
 10
248.1033745039464
 20
-135.1648762682921
 30
0.0
 10
248.1226670386638
 20
-135.8146212768102
 30
0.0
 10
248.152983878934
 20
-136.3644585162561
 30
0.0
 10
248.1929469865629
 20
-136.8143879866298
 30
0.0
 10
248.2329100941918
 20
-137.2636284379063
 30
0.0
 10
248.2880316219558
 20
-137.6439669794779
 30
0.0
 10
248.3583115698549
 20
-137.9533365540534
 30
0.0
 10
248.4279024986569
 20
-138.2640841668229
 30
0.0
 10
248.5229871340498
 20
-138.568630607719
 30
0.0
 10
248.6428764569365
 20
-138.8683539149357
 30
0.0
 10
248.6428764569365
 20
-138.8683539149357
 30
0.0
 10
244.1153319702212
 20
-138.8683539149357
 30
0.0
 10
244.1153319702212
 20
-138.8683539149357
 30
0.0
  0
SPLINE
  5
50
330
3C
100
AcDbEntity
  8
Layer 1
370
     0
100
AcDbSpline
210
0.0
220
0.0
230
1.0
 70
    11
 71
     3
 72
    44
 73
    40
 74
     0
 42
0.0000000001
 43
0.0000000001
 40
0.0
 40
0.0
 40
0.0
 40
0.0
 40
1.0
 40
1.0
 40
1.0
 40
2.0
 40
2.0
 40
2.0
 40
3.0
 40
3.0
 40
3.0
 40
4.0
 40
4.0
 40
4.0
 40
5.0
 40
5.0
 40
5.0
 40
6.0
 40
6.0
 40
6.0
 40
7.0
 40
7.0
 40
7.0
 40
8.0
 40
8.0
 40
8.0
 40
9.0
 40
9.0
 40
9.0
 40
10.0
 40
10.0
 40
10.0
 40
11.0
 40
11.0
 40
11.0
 40
12.0
 40
12.0
 40
12.0
 40
13.0
 40
13.0
 40
13.0
 40
13.0
 10
242.8558050608139
 20
-127.6235622510802
 30
0.0
 10
242.7755343360075
 20
-127.4637098205646
 30
0.0
 10
242.630840325627
 20
-127.3238389438635
 30
0.0
 10
242.4210340105753
 20
-127.2032606018797
 30
0.0
 10
242.2108831859751
 20
-127.0833712789931
 30
0.0
 10
241.9862629603368
 20
-127.0234266175497
 30
0.0
 10
241.7461398050149
 20
-127.0234266175497
 30
0.0
 10
241.4061088806207
 20
-127.0234266175497
 30
0.0
 10
241.1211994839906
 20
-127.0937065654488
 30
0.0
 10
240.8914116151244
 20
-127.23357744215
 30
0.0
 10
240.6612792367097
 20
-127.3734483188511
 30
0.0
 10
240.4814452523796
 20
-127.6132269646245
 30
0.0
 10
240.3519096621343
 20
-127.9529133794701
 30
0.0
 10
240.2216850527918
 20
-128.2932888134128
 30
0.0
 10
240.1269449269474
 20
-128.7528645511451
 30
0.0
 10
240.0670002655041
 20
-129.3323296117642
 30
0.0
 10
240.0070556040608
 20
-129.9124836914802
 30
0.0
 10
239.9770832733391
 20
-130.6421549152561
 30
0.0
 10
239.9770832733391
 20
-131.5213432830919
 30
0.0
 10
239.9770832733391
 20
-132.0815158089935
 30
0.0
 10
239.996720317605
 20
-132.5913899408105
 30
0.0
 10
240.0370279347824
 20
-133.0509656785428
 30
0.0
 10
240.0769910424113
 20
-133.5112304353722
 30
0.0
 10
240.1569172576691
 20
-133.9108615116612
 30
0.0
 10
240.2768065805558
 20
-134.2505479265068
 30
0.0
 10
240.3966959034425
 20
-134.5902343413524
 30
0.0
 10
240.5717067540932
 20
-134.8555066937167
 30
0.0
 10
240.8018391325079
 20
-135.0449869454054
 30
0.0
 10
241.0312824918255
 20
-135.2351562161912
 30
0.0
 10
241.3361734422701
 20
-135.3295518324871
 30
0.0
 10
241.7161674742932
 20
-135.3295518324871
 30
0.0
 10
241.9959092276955
 20
-135.3295518324871
 30
0.0
 10
242.2308647397895
 20
-135.2799424574995
 30
0.0
 10
242.4210340105753
 20
-135.1800346884272
 30
0.0
 10
242.610514262264
 20
-135.080126919355
 30
0.0
 10
242.7552082726446
 20
-134.9602375964683
 30
0.0
 10
242.8558050608139
 20
-134.8203667197672
 30
0.0
 10
242.8558050608139
 20
-134.8203667197672
 30
0.0
 10
242.8558050608139
 20
-127.6235622510802
 30
0.0
 10
242.8558050608139
 20
-127.6235622510802
 30
0.0
  0
SPLINE
  5
51
330
3C
100
AcDbEntity
  8
Layer 1
370
     0
100
AcDbSpline
210
0.0
220
0.0
230
1.0
 70
    11
 71
     3
 72
    95
 73
    91
 74
     0
 42
0.0000000001
 43
0.0000000001
 40
0.0
 40
0.0
 40
0.0
 40
0.0
 40
1.0
 40
1.0
 40
1.0
 40
2.0
 40
2.0
 40
2.0
 40
3.0
 40
3.0
 40
3.0
 40
4.0
 40
4.0
 40
4.0
 40
5.0
 40
5.0
 40
5.0
 40
6.0
 40
6.0
 40
6.0
 40
7.0
 40
7.0
 40
7.0
 40
8.0
 40
8.0
 40
8.0
 40
9.0
 40
9.0
 40
9.0
 40
10.0
 40
10.0
 40
10.0
 40
11.0
 40
11.0
 40
11.0
 40
12.0
 40
12.0
 40
12.0
 40
13.0
 40
13.0
 40
13.0
 40
14.0
 40
14.0
 40
14.0
 40
15.0
 40
15.0
 40
15.0
 40
16.0
 40
16.0
 40
16.0
 40
17.0
 40
17.0
 40
17.0
 40
18.0
 40
18.0
 40
18.0
 40
19.0
 40
19.0
 40
19.0
 40
20.0
 40
20.0
 40
20.0
 40
21.0
 40
21.0
 40
21.0
 40
22.0
 40
22.0
 40
22.0
 40
23.0
 40
23.0
 40
23.0
 40
24.0
 40
24.0
 40
24.0
 40
25.0
 40
25.0
 40
25.0
 40
26.0
 40
26.0
 40
26.0
 40
27.0
 40
27.0
 40
27.0
 40
28.0
 40
28.0
 40
28.0
 40
29.0
 40
29.0
 40
29.0
 40
30.0
 40
30.0
 40
30.0
 40
30.0
 10
261.5671521698513
 20
-139.4981173696394
 30
0.0
 10
261.1871581378282
 20
-139.3782280467527
 30
0.0
 10
260.8026854816744
 20
-139.1529188020173
 30
0.0
 10
260.4127006727441
 20
-138.8228786545304
 30
0.0
 10
260.0227158638138
 20
-138.4935275261405
 30
0.0
 10
259.7677787979053
 20
-138.2082736199618
 30
0.0
 10
259.6478894750186
 20
-137.9684949741884
 30
0.0
 10
259.268239952544
 20
-138.2888888543167
 30
0.0
 10
258.7583658207271
 20
-138.583100008757
 30
0.0
 10
258.1186115891162
 20
-138.8531954948006
 30
0.0
 10
257.4788573575053
 20
-139.1232909808442
 30
0.0
 10
256.6988877396448
 20
-139.258338723866
 30
0.0
 10
255.7797362641801
 20
-139.258338723866
 30
0.0
 10
254.820277171538
 20
-139.258338723866
 30
0.0
 10
254.0055120892764
 20
-139.1232909808442
 30
0.0
 10
253.3357855269439
 20
-138.8531954948006
 30
0.0
 10
252.6660589646113
 20
-138.583100008757
 30
0.0
 10
252.1162217251654
 20
-138.2234320400969
 30
0.0
 10
251.6866183181548
 20
-137.7735025697233
 30
0.0
 10
251.256325892047
 20
-137.3235730993497
 30
0.0
 10
250.9469563174716
 20
-136.7944064328153
 30
0.0
 10
250.7571315562343
 20
-136.1846245319261
 30
0.0
 10
250.5666177759
 20
-135.5748426310369
 30
0.0
 10
250.4722221596042
 20
-134.9202744888394
 30
0.0
 10
250.4722221596042
 20
-134.2202310862366
 30
0.0
 10
250.4722221596042
 20
-133.480913595102
 30
0.0
 10
250.6269069468919
 20
-132.8063638990901
 30
0.0
 10
250.9369655405644
 20
-132.1965819982009
 30
0.0
 10
251.2466796246883
 20
-131.5868000973117
 30
0.0
 10
251.696609095062
 20
-131.0569444116802
 30
0.0
 10
252.2864094421367
 20
-130.6070149413066
 30
0.0
 10
252.875865279663
 20
-130.157085470933
 30
0.0
 10
253.5955457265317
 20
-129.8077527887286
 30
0.0
 10
254.4454507827428
 20
-129.5576388564995
 30
0.0
 10
255.2946668198569
 20
-129.3075249242704
 30
0.0
 10
256.2592935557269
 20
-129.1828124677043
 30
0.0
 10
257.3389864808042
 20
-129.1828124677043
 30
0.0
 10
257.4388942498764
 20
-129.1828124677043
 30
0.0
 10
257.5887559034848
 20
-129.1828124677043
 30
0.0
 10
257.7889159511778
 20
-129.1828124677043
 30
0.0
 10
257.9883869797737
 20
-129.1828124677043
 30
0.0
 10
258.1286023660234
 20
-129.1931477541601
 30
0.0
 10
258.2085285812812
 20
-129.2124402888774
 30
0.0
 10
258.2085285812812
 20
-129.2124402888774
 30
0.0
 10
258.2085285812812
 20
-128.2533257057839
 30
0.0
 10
258.2085285812812
 20
-128.2533257057839
 30
0.0
 10
258.2085285812812
 20
-127.7937499680516
 30
0.0
 10
258.1437607861585
 20
-127.4389051330708
 30
0.0
 10
258.013536176816
 20
-127.1887912008417
 30
0.0
 10
257.8833115674736
 20
-126.9386772686126
 30
0.0
 10
257.5288112420414
 20
-126.8139648120465
 30
0.0
 10
256.9490016718739
 20
-126.8139648120465
 30
0.0
 10
256.069124284941
 20
-126.8139648120465
 30
0.0
 10
255.2798529092703
 20
-126.9593478415241
 30
0.0
 10
254.5801540162161
 20
-127.248735862285
 30
0.0
 10
253.8801106136133
 20
-127.5388129021431
 30
0.0
 10
253.2007377839221
 20
-127.9336208447527
 30
0.0
 10
252.5413465080452
 20
-128.4331596901139
 30
0.0
 10
252.5413465080452
 20
-128.4331596901139
 30
0.0
 10
250.6520561439342
 20
-125.1947699339791
 30
0.0
 10
250.6520561439342
 20
-125.1947699339791
 30
0.0
 10
251.6118597461248
 20
-124.614615854263
 30
0.0
 10
252.6912081616536
 20
-124.1054307415431
 30
0.0
 10
253.8904459000691
 20
-123.6651475385282
 30
0.0
 10
255.0900281480331
 20
-123.2255533546103
 30
0.0
 10
256.329573503626
 20
-123.0057562626513
 30
0.0
 10
257.6090819668477
 20
-123.0057562626513
 30
0.0
 10
259.0880614586655
 20
-123.0057562626513
 30
0.0
 10
260.3176160373512
 20
-123.2455349084247
 30
0.0
 10
261.2974011933562
 20
-123.7250921999715
 30
0.0
 10
262.2764973302642
 20
-124.2046494915183
 30
0.0
 10
262.9062607849679
 20
-124.9046928941211
 30
0.0
 10
263.1863470479187
 20
-125.8245333886828
 30
0.0
 10
263.2859103074424
 20
-126.1642198035284
 30
0.0
 10
263.3513671216622
 20
-126.503906218374
 30
0.0
 10
263.3809949428353
 20
-126.8435926332197
 30
0.0
 10
263.4113117831055
 20
-127.1839680671624
 30
0.0
 10
263.4264702032406
 20
-127.6435438048947
 30
0.0
 10
263.4264702032406
 20
-128.2230088655137
 30
0.0
 10
263.4264702032406
 20
-128.2230088655137
 30
0.0
 10
263.3661810322487
 20
-133.5608398103598
 30
0.0
 10
263.3661810322487
 20
-133.5608398103598
 30
0.0
 10
263.3661810322487
 20
-134.2009385515192
 30
0.0
 10
263.4309488273714
 20
-134.7804036121382
 30
0.0
 10
263.5611734367139
 20
-135.2999240113139
 30
0.0
 10
263.6910535365078
 20
-135.8201334295866
 30
0.0
 10
264.0259168176741
 20
-136.2493923270488
 30
0.0
 10
264.5657632802128
 20
-136.5890787418944
 30
0.0
 10
264.5657632802128
 20
-136.5890787418944
 30
0.0
 10
261.5671521698513
 20
-139.4981173696394
 30
0.0
 10
261.5671521698513
 20
-139.4981173696394
 30
0.0
  0
SPLINE
  5
52
330
3C
100
AcDbEntity
  8
Layer 1
370
     0
100
AcDbSpline
210
0.0
220
0.0
230
1.0
 70
    11
 71
     3
 72
    32
 73
    28
 74
     0
 42
0.0000000001
 43
0.0000000001
 40
0.0
 40
0.0
 40
0.0
 40
0.0
 40
1.0
 40
1.0
 40
1.0
 40
2.0
 40
2.0
 40
2.0
 40
3.0
 40
3.0
 40
3.0
 40
4.0
 40
4.0
 40
4.0
 40
5.0
 40
5.0
 40
5.0
 40
6.0
 40
6.0
 40
6.0
 40
7.0
 40
7.0
 40
7.0
 40
8.0
 40
8.0
 40
8.0
 40
9.0
 40
9.0
 40
9.0
 40
9.0
 10
258.2085285812812
 20
-132.4508300450123
 30
0.0
 10
257.6690266282911
 20
-132.4315375102949
 30
0.0
 10
257.2239202915968
 20
-132.4659884651474
 30
0.0
 10
256.874243099844
 20
-132.5562499668609
 30
0.0
 10
256.5242213985426
 20
-132.6458224494774
 30
0.0
 10
256.2493027788196
 20
-132.7760470588199
 30
0.0
 10
256.0498317502237
 20
-132.9462347757912
 30
0.0
 10
255.8493271929821
 20
-133.1157334736655
 30
0.0
 10
255.7146239595089
 20
-133.3059027444513
 30
0.0
 10
255.6446885211583
 20
-133.5153645499545
 30
0.0
 10
255.5744085732592
 20
-133.7255153745547
 30
0.0
 10
255.5399576184067
 20
-133.9404893328343
 30
0.0
 10
255.5399576184067
 20
-134.1602864247933
 30
0.0
 10
255.5399576184067
 20
-134.6205511816227
 30
0.0
 10
255.6646700749727
 20
-134.9850422839621
 30
0.0
 10
255.9147840072019
 20
-135.2551377700057
 30
0.0
 10
256.164208920334
 20
-135.5245442369522
 30
0.0
 10
256.5190537553147
 20
-135.659591979974
 30
0.0
 10
256.9793185121441
 20
-135.659591979974
 30
0.0
 10
257.199115604103
 20
-135.659591979974
 30
0.0
 10
257.4337266066485
 20
-135.605159471307
 30
0.0
 10
257.6838405388777
 20
-135.494916415779
 30
0.0
 10
257.9336099615583
 20
-135.3853623793481
 30
0.0
 10
258.108620812209
 20
-135.2696071710437
 30
0.0
 10
258.2085285812812
 20
-135.149717848157
 30
0.0
 10
258.2085285812812
 20
-135.149717848157
 30
0.0
 10
258.2085285812812
 20
-132.4508300450123
 30
0.0
 10
258.2085285812812
 20
-132.4508300450123
 30
0.0
  0
SPLINE
  5
53
330
3C
100
AcDbEntity
  8
Layer 1
370
     0
100
AcDbSpline
210
0.0
220
0.0
230
1.0
 70
    11
 71
     3
 72
    74
 73
    70
 74
     0
 42
0.0000000001
 43
0.0000000001
 40
0.0
 40
0.0
 40
0.0
 40
0.0
 40
1.0
 40
1.0
 40
1.0
 40
2.0
 40
2.0
 40
2.0
 40
3.0
 40
3.0
 40
3.0
 40
4.0
 40
4.0
 40
4.0
 40
5.0
 40
5.0
 40
5.0
 40
6.0
 40
6.0
 40
6.0
 40
7.0
 40
7.0
 40
7.0
 40
8.0
 40
8.0
 40
8.0
 40
9.0
 40
9.0
 40
9.0
 40
10.0
 40
10.0
 40
10.0
 40
11.0
 40
11.0
 40
11.0
 40
12.0
 40
12.0
 40
12.0
 40
13.0
 40
13.0
 40
13.0
 40
14.0
 40
14.0
 40
14.0
 40
15.0
 40
15.0
 40
15.0
 40
16.0
 40
16.0
 40
16.0
 40
17.0
 40
17.0
 40
17.0
 40
18.0
 40
18.0
 40
18.0
 40
19.0
 40
19.0
 40
19.0
 40
20.0
 40
20.0
 40
20.0
 40
21.0
 40
21.0
 40
21.0
 40
22.0
 40
22.0
 40
22.0
 40
23.0
 40
23.0
 40
23.0
 40
23.0
 10
275.6606932904598
 20
-138.8979817361088
 30
0.0
 10
275.2207545969935
 20
-140.0376193226295
 30
0.0
 10
274.7911511899828
 20
-141.0318738796726
 30
0.0
 10
274.3715385598794
 20
-141.8821234454323
 30
0.0
 10
273.9515814202274
 20
-142.7309949729978
 30
0.0
 10
273.456521198997
 20
-143.4413736620563
 30
0.0
 10
272.8870469152852
 20
-144.0105034362196
 30
0.0
 10
272.3172281220249
 20
-144.5803222294799
 30
0.0
 10
271.62235236265
 20
-145.0254285661742
 30
0.0
 10
270.8031086562576
 20
-145.3451334272054
 30
0.0
 10
269.9831759307681
 20
-145.6648382882366
 30
0.0
 10
268.9634276671342
 20
-145.8743000937398
 30
0.0
 10
267.7445528844528
 20
-145.974896881909
 30
0.0
 10
267.7445528844528
 20
-145.974896881909
 30
0.0
 10
265.9152071817851
 20
-142.6166178028875
 30
0.0
 10
265.9152071817851
 20
-142.6166178028875
 30
0.0
 10
266.6948322900971
 20
-142.4367838185575
 30
0.0
 10
267.3494004322946
 20
-142.251437681451
 30
0.0
 10
267.8796006274745
 20
-142.0619574297623
 30
0.0
 10
268.408767294009
 20
-141.8717881589765
 30
0.0
 10
268.8635198980619
 20
-141.6416557805618
 30
0.0
 10
269.2438584396335
 20
-141.3722493136153
 30
0.0
 10
269.6231634525595
 20
-141.1021538275717
 30
0.0
 10
269.9583712432743
 20
-140.7672905464054
 30
0.0
 10
270.2484482831323
 20
-140.3676594701164
 30
0.0
 10
270.5378363038934
 20
-139.9673393747304
 30
0.0
 10
270.8327364774307
 20
-139.4678005293692
 30
0.0
 10
271.132804294196
 20
-138.8683539149357
 30
0.0
 10
271.132804294196
 20
-138.8683539149357
 30
0.0
 10
269.6934434004586
 20
-138.8683539149357
 30
0.0
 10
269.6934434004586
 20
-138.8683539149357
 30
0.0
 10
269.5931911218378
 20
-138.3281629428485
 30
0.0
 10
269.4388508440986
 20
-137.6791069534275
 30
0.0
 10
269.2287000194984
 20
-136.9191188893813
 30
0.0
 10
269.0188937044467
 20
-136.1598198444323
 30
0.0
 10
268.8035752366185
 20
-135.479757995644
 30
0.0
 10
268.5837781446596
 20
-134.8803113812105
 30
0.0
 10
268.5837781446596
 20
-134.8803113812105
 30
0.0
 10
264.7459417740913
 20
-123.5452582156415
 30
0.0
 10
264.7459417740913
 20
-123.5452582156415
 30
0.0
 10
264.7459417740913
 20
-123.5452582156415
 30
0.0
 10
270.0830836998404
 20
-123.1552734067112
 30
0.0
 10
270.0830836998404
 20
-123.1552734067112
 30
0.0
 10
270.0830836998404
 20
-123.1552734067112
 30
0.0
 10
272.3923312036033
 20
-131.2519368161454
 30
0.0
 10
272.3923312036033
 20
-131.2519368161454
 30
0.0
 10
272.5518391245704
 20
-131.771457215321
 30
0.0
 10
272.6920545108201
 20
-132.3013129009525
 30
0.0
 10
272.8122883432553
 20
-132.8408148539426
 30
0.0
 10
272.932177666142
 20
-133.3810058260298
 30
0.0
 10
273.0317409256657
 20
-133.9108615116612
 30
0.0
 10
273.112011650472
 20
-134.4303819108368
 30
0.0
 10
273.112011650472
 20
-134.4303819108368
 30
0.0
 10
273.1419839811937
 20
-134.4303819108368
 30
0.0
 10
273.1419839811937
 20
-134.4303819108368
 30
0.0
 10
273.2415472407174
 20
-133.6311197582589
 30
0.0
 10
273.3817626269671
 20
-132.8063638990901
 30
0.0
 10
273.5619411208456
 20
-131.9561143333304
 30
0.0
 10
273.7417751051757
 20
-131.1072428057649
 30
0.0
 10
273.9515814202274
 20
-130.3327853406807
 30
0.0
 10
274.1913600660008
 20
-129.6327419380779
 30
0.0
 10
274.1913600660008
 20
-129.6327419380779
 30
0.0
 10
276.2604844144419
 20
-123.3950520524846
 30
0.0
 10
276.2604844144419
 20
-123.3950520524846
 30
0.0
 10
276.2604844144419
 20
-123.3950520524846
 30
0.0
 10
281.538026188296
 20
-123.3950520524846
 30
0.0
 10
281.538026188296
 20
-123.3950520524846
 30
0.0
 10
281.538026188296
 20
-123.3950520524846
 30
0.0
 10
275.6606932904598
 20
-138.8979817361088
 30
0.0
 10
275.6606932904598
 20
-138.8979817361088
 30
0.0
  0
SPLINE
  5
54
330
3C
100
AcDbEntity
  8
Layer 1
370
     0
100
AcDbSpline
210
0.0
220
0.0
230
1.0
 70
    11
 71
     3
 72
    53
 73
    49
 74
     0
 42
0.0000000001
 43
0.0000000001
 40
0.0
 40
0.0
 40
0.0
 40
0.0
 40
1.0
 40
1.0
 40
1.0
 40
2.0
 40
2.0
 40
2.0
 40
3.0
 40
3.0
 40
3.0
 40
4.0
 40
4.0
 40
4.0
 40
5.0
 40
5.0
 40
5.0
 40
6.0
 40
6.0
 40
6.0
 40
7.0
 40
7.0
 40
7.0
 40
8.0
 40
8.0
 40
8.0
 40
9.0
 40
9.0
 40
9.0
 40
10.0
 40
10.0
 40
10.0
 40
11.0
 40
11.0
 40
11.0
 40
12.0
 40
12.0
 40
12.0
 40
13.0
 40
13.0
 40
13.0
 40
14.0
 40
14.0
 40
14.0
 40
15.0
 40
15.0
 40
15.0
 40
16.0
 40
16.0
 40
16.0
 40
16.0
 10
287.6851100626274
 20
-136.3196722749479
 30
0.0
 10
287.6851100626274
 20
-136.7392849050513
 30
0.0
 10
287.604839337821
 20
-137.1396050004373
 30
0.0
 10
287.4449869073054
 20
-137.5185655038148
 30
0.0
 10
287.2847899672413
 20
-137.8989040453864
 30
0.0
 10
287.060169741603
 20
-138.2289441928733
 30
0.0
 10
286.7704372112935
 20
-138.5086859462756
 30
0.0
 10
286.4803601714355
 20
-138.7884276996779
 30
0.0
 10
286.1506645334971
 20
-139.0075357725398
 30
0.0
 10
285.7810057879298
 20
-139.1680772221524
 30
0.0
 10
285.4106580232654
 20
-139.327929652668
 30
0.0
 10
285.0161945902043
 20
-139.4078558679258
 30
0.0
 10
284.5965819601009
 20
-139.4078558679258
 30
0.0
 10
284.1766248204489
 20
-139.4078558679258
 30
0.0
 10
283.7818168778393
 20
-139.327929652668
 30
0.0
 10
283.412158132272
 20
-139.1680772221524
 30
0.0
 10
283.0418103676076
 20
-139.0075357725398
 30
0.0
 10
282.7172823728971
 20
-138.7884276996779
 30
0.0
 10
282.4375406194948
 20
-138.5086859462756
 30
0.0
 10
282.157454356544
 20
-138.2289441928733
 30
0.0
 10
281.937657264585
 20
-137.8989040453864
 30
0.0
 10
281.7778048340695
 20
-137.5185655038148
 30
0.0
 10
281.6176078940053
 20
-137.1396050004373
 30
0.0
 10
281.538026188296
 20
-136.7392849050513
 30
0.0
 10
281.538026188296
 20
-136.3196722749479
 30
0.0
 10
281.538026188296
 20
-135.8993706257474
 30
0.0
 10
281.6176078940053
 20
-135.5100748359142
 30
0.0
 10
281.7778048340695
 20
-135.149717848157
 30
0.0
 10
281.937657264585
 20
-134.7900498794969
 30
0.0
 10
282.157454356544
 20
-134.4703450184658
 30
0.0
 10
282.4375406194948
 20
-134.1906032650635
 30
0.0
 10
282.7172823728971
 20
-133.9108615116612
 30
0.0
 10
283.0418103676076
 20
-133.6910644197022
 30
0.0
 10
283.412158132272
 20
-133.5305229700896
 30
0.0
 10
283.7818168778393
 20
-133.370670539574
 30
0.0
 10
284.1766248204489
 20
-133.2907443243162
 30
0.0
 10
284.5965819601009
 20
-133.2907443243162
 30
0.0
 10
285.0161945902043
 20
-133.2907443243162
 30
0.0
 10
285.4106580232654
 20
-133.370670539574
 30
0.0
 10
285.7810057879298
 20
-133.5305229700896
 30
0.0
 10
286.1506645334971
 20
-133.6910644197022
 30
0.0
 10
286.4803601714355
 20
-133.9108615116612
 30
0.0
 10
286.7704372112935
 20
-134.1906032650635
 30
0.0
 10
287.060169741603
 20
-134.4703450184658
 30
0.0
 10
287.2847899672413
 20
-134.7900498794969
 30
0.0
 10
287.4449869073054
 20
-135.149717848157
 30
0.0
 10
287.604839337821
 20
-135.5100748359142
 30
0.0
 10
287.6851100626274
 20
-135.8993706257474
 30
0.0
 10
287.6851100626274
 20
-136.3196722749479
 30
0.0
  0
SPLINE
  5
55
330
3C
100
AcDbEntity
  8
Layer 1
370
     0
100
AcDbSpline
210
0.0
220
0.0
230
1.0
 70
    11
 71
     3
 72
    53
 73
    49
 74
     0
 42
0.0000000001
 43
0.0000000001
 40
0.0
 40
0.0
 40
0.0
 40
0.0
 40
1.0
 40
1.0
 40
1.0
 40
2.0
 40
2.0
 40
2.0
 40
3.0
 40
3.0
 40
3.0
 40
4.0
 40
4.0
 40
4.0
 40
5.0
 40
5.0
 40
5.0
 40
6.0
 40
6.0
 40
6.0
 40
7.0
 40
7.0
 40
7.0
 40
8.0
 40
8.0
 40
8.0
 40
9.0
 40
9.0
 40
9.0
 40
10.0
 40
10.0
 40
10.0
 40
11.0
 40
11.0
 40
11.0
 40
12.0
 40
12.0
 40
12.0
 40
13.0
 40
13.0
 40
13.0
 40
14.0
 40
14.0
 40
14.0
 40
15.0
 40
15.0
 40
15.0
 40
16.0
 40
16.0
 40
16.0
 40
16.0
 10
296.2306694137895
 20
-136.3196722749479
 30
0.0
 10
296.2306694137895
 20
-136.7392849050513
 30
0.0
 10
296.1503986889833
 20
-137.1396050004373
 30
0.0
 10
295.9905462584676
 20
-137.5185655038148
 30
0.0
 10
295.8303493184035
 20
-137.8989040453864
 30
0.0
 10
295.6057290927653
 20
-138.2289441928733
 30
0.0
 10
295.3159965624557
 20
-138.5086859462756
 30
0.0
 10
295.0259195225977
 20
-138.7884276996779
 30
0.0
 10
294.6962238846593
 20
-139.0075357725398
 30
0.0
 10
294.326565139092
 20
-139.1680772221524
 30
0.0
 10
293.9562173744276
 20
-139.327929652668
 30
0.0
 10
293.5617539413665
 20
-139.4078558679258
 30
0.0
 10
293.1421413112631
 20
-139.4078558679258
 30
0.0
 10
292.7221841716112
 20
-139.4078558679258
 30
0.0
 10
292.3273762290015
 20
-139.327929652668
 30
0.0
 10
291.9577174834342
 20
-139.1680772221524
 30
0.0
 10
291.5873697187698
 20
-139.0075357725398
 30
0.0
 10
291.2628417240593
 20
-138.7884276996779
 30
0.0
 10
290.983099970657
 20
-138.5086859462756
 30
0.0
 10
290.7030137077062
 20
-138.2289441928733
 30
0.0
 10
290.4832166157473
 20
-137.8989040453864
 30
0.0
 10
290.3233641852317
 20
-137.5185655038148
 30
0.0
 10
290.1631672451675
 20
-137.1396050004373
 30
0.0
 10
290.0835855394583
 20
-136.7392849050513
 30
0.0
 10
290.0835855394583
 20
-136.3196722749479
 30
0.0
 10
290.0835855394583
 20
-135.8993706257474
 30
0.0
 10
290.1631672451675
 20
-135.5100748359142
 30
0.0
 10
290.3233641852317
 20
-135.149717848157
 30
0.0
 10
290.4832166157473
 20
-134.7900498794969
 30
0.0
 10
290.7030137077062
 20
-134.4703450184658
 30
0.0
 10
290.983099970657
 20
-134.1906032650635
 30
0.0
 10
291.2628417240593
 20
-133.9108615116612
 30
0.0
 10
291.5873697187698
 20
-133.6910644197022
 30
0.0
 10
291.9577174834342
 20
-133.5305229700896
 30
0.0
 10
292.3273762290015
 20
-133.370670539574
 30
0.0
 10
292.7221841716112
 20
-133.2907443243162
 30
0.0
 10
293.1421413112631
 20
-133.2907443243162
 30
0.0
 10
293.5617539413665
 20
-133.2907443243162
 30
0.0
 10
293.9562173744276
 20
-133.370670539574
 30
0.0
 10
294.326565139092
 20
-133.5305229700896
 30
0.0
 10
294.6962238846593
 20
-133.6910644197022
 30
0.0
 10
295.0259195225977
 20
-133.9108615116612
 30
0.0
 10
295.3159965624557
 20
-134.1906032650635
 30
0.0
 10
295.6057290927653
 20
-134.4703450184658
 30
0.0
 10
295.8303493184035
 20
-134.7900498794969
 30
0.0
 10
295.9905462584676
 20
-135.149717848157
 30
0.0
 10
296.1503986889833
 20
-135.5100748359142
 30
0.0
 10
296.2306694137895
 20
-135.8993706257474
 30
0.0
 10
296.2306694137895
 20
-136.3196722749479
 30
0.0
  0
SPLINE
  5
56
330
3C
100
AcDbEntity
  8
Layer 1
370
     0
100
AcDbSpline
210
0.0
220
0.0
230
1.0
 70
    11
 71
     3
 72
    53
 73
    49
 74
     0
 42
0.0000000001
 43
0.0000000001
 40
0.0
 40
0.0
 40
0.0
 40
0.0
 40
1.0
 40
1.0
 40
1.0
 40
2.0
 40
2.0
 40
2.0
 40
3.0
 40
3.0
 40
3.0
 40
4.0
 40
4.0
 40
4.0
 40
5.0
 40
5.0
 40
5.0
 40
6.0
 40
6.0
 40
6.0
 40
7.0
 40
7.0
 40
7.0
 40
8.0
 40
8.0
 40
8.0
 40
9.0
 40
9.0
 40
9.0
 40
10.0
 40
10.0
 40
10.0
 40
11.0
 40
11.0
 40
11.0
 40
12.0
 40
12.0
 40
12.0
 40
13.0
 40
13.0
 40
13.0
 40
14.0
 40
14.0
 40
14.0
 40
15.0
 40
15.0
 40
15.0
 40
16.0
 40
16.0
 40
16.0
 40
16.0
 10
304.7765732745003
 20
-136.3196722749479
 30
0.0
 10
304.7765732745003
 20
-136.7392849050513
 30
0.0
 10
304.696302549694
 20
-137.1396050004373
 30
0.0
 10
304.5364501191784
 20
-137.5185655038148
 30
0.0
 10
304.3762531791143
 20
-137.8989040453864
 30
0.0
 10
304.151632953476
 20
-138.2289441928733
 30
0.0
 10
303.8619004231665
 20
-138.5086859462756
 30
0.0
 10
303.5718233833085
 20
-138.7884276996779
 30
0.0
 10
303.2421277453701
 20
-139.0075357725398
 30
0.0
 10
302.8724689998027
 20
-139.1680772221524
 30
0.0
 10
302.5021212351384
 20
-139.327929652668
 30
0.0
 10
302.1076578020773
 20
-139.4078558679258
 30
0.0
 10
301.6880451719738
 20
-139.4078558679258
 30
0.0
 10
301.2680880323219
 20
-139.4078558679258
 30
0.0
 10
300.8732800897122
 20
-139.327929652668
 30
0.0
 10
300.503621344145
 20
-139.1680772221524
 30
0.0
 10
300.1332735794806
 20
-139.0075357725398
 30
0.0
 10
299.8087455847701
 20
-138.7884276996779
 30
0.0
 10
299.5290038313678
 20
-138.5086859462756
 30
0.0
 10
299.248917568417
 20
-138.2289441928733
 30
0.0
 10
299.029120476458
 20
-137.8989040453864
 30
0.0
 10
298.8692680459424
 20
-137.5185655038148
 30
0.0
 10
298.7090711058783
 20
-137.1396050004373
 30
0.0
 10
298.629489400169
 20
-136.7392849050513
 30
0.0
 10
298.629489400169
 20
-136.3196722749479
 30
0.0
 10
298.629489400169
 20
-135.8993706257474
 30
0.0
 10
298.7090711058783
 20
-135.5100748359142
 30
0.0
 10
298.8692680459424
 20
-135.149717848157
 30
0.0
 10
299.029120476458
 20
-134.7900498794969
 30
0.0
 10
299.248917568417
 20
-134.4703450184658
 30
0.0
 10
299.5290038313678
 20
-134.1906032650635
 30
0.0
 10
299.8087455847701
 20
-133.9108615116612
 30
0.0
 10
300.1332735794806
 20
-133.6910644197022
 30
0.0
 10
300.503621344145
 20
-133.5305229700896
 30
0.0
 10
300.8732800897122
 20
-133.370670539574
 30
0.0
 10
301.2680880323219
 20
-133.2907443243162
 30
0.0
 10
301.6880451719738
 20
-133.2907443243162
 30
0.0
 10
302.1076578020773
 20
-133.2907443243162
 30
0.0
 10
302.5021212351384
 20
-133.370670539574
 30
0.0
 10
302.8724689998027
 20
-133.5305229700896
 30
0.0
 10
303.2421277453701
 20
-133.6910644197022
 30
0.0
 10
303.5718233833085
 20
-133.9108615116612
 30
0.0
 10
303.8619004231665
 20
-134.1906032650635
 30
0.0
 10
304.151632953476
 20
-134.4703450184658
 30
0.0
 10
304.3762531791143
 20
-134.7900498794969
 30
0.0
 10
304.5364501191784
 20
-135.149717848157
 30
0.0
 10
304.696302549694
 20
-135.5100748359142
 30
0.0
 10
304.7765732745003
 20
-135.8993706257474
 30
0.0
 10
304.7765732745003
 20
-136.3196722749479
 30
0.0
  0
ENDBLK
  5
3F
330
3C
100
AcDbEntity
  8
0
100
AcDbBlockEnd
  0
ENDSEC
  0
SECTION
  2
ENTITIES
  0
INSERT
  5
3D
330
1F
100
AcDbEntity
  8
Layer 1
100
AcDbBlockReference
  2
block 2
 10
0.0
 20
0.0
 30
0.0
  0
ENDSEC
  0
SECTION
  2
OBJECTS
  0
DICTIONARY
  5
C
330
0
100
AcDbDictionary
281
     1
  3
ACAD_GROUP
350
D
  3
ACAD_LAYOUT
350
1A
  3
ACAD_MLINESTYLE
350
17
  3
ACAD_PLOTSETTINGS
350
19
  3
ACAD_PLOTSTYLENAME
350
E
  3
ACAD_TABLESTYLE
350
57
  3
ACAD_VISUALSTYLE
350
2A
  0
DICTIONARY
  5
D
102
{ACAD_REACTORS
330
C
102
}
330
C
100
AcDbDictionary
281
     1
  0
DICTIONARY
  5
1A
102
{ACAD_REACTORS
330
C
102
}
330
C
100
AcDbDictionary
281
     1
  3
Layout1
350
1E
  3
Layout2
350
26
  3
Model
350
22
  0
DICTIONARY
  5
17
102
{ACAD_REACTORS
330
C
102
}
330
C
100
AcDbDictionary
281
     1
  3
Standard
350
18
  0
DICTIONARY
  5
19
102
{ACAD_REACTORS
330
C
102
}
330
C
100
AcDbDictionary
281
     1
  0
ACDBDICTIONARYWDFLT
  5
E
102
{ACAD_REACTORS
330
C
102
}
330
C
100
AcDbDictionary
281
     1
  3
Normal
350
F
100
AcDbDictionaryWithDefault
340
F
  0
DICTIONARY
  5
57
102
{ACAD_REACTORS
330
C
102
}
330
C
100
AcDbDictionary
281
     1
  0
DICTIONARY
  5
2A
102
{ACAD_REACTORS
330
C
102
}
330
C
100
AcDbDictionary
281
     1
  3
2dWireframe
350
2F
  3
3D Hidden
350
31
  3
3dWireframe
350
30
  3
Basic
350
32
  3
Brighten
350
36
  3
ColorChange
350
3A
  3
Conceptual
350
34
  3
Dim
350
35
  3
Facepattern
350
39
  3
Flat
350
2B
  3
FlatWithEdges
350
2C
  3
Gouraud
350
2D
  3
GouraudWithEdges
350
2E
  3
Linepattern
350
38
  3
Realistic
350
33
  3
Thicken
350
37
  0
LAYOUT
  5
1E
102
{ACAD_REACTORS
330
1A
102
}
330
1A
100
AcDbPlotSettings
  1

  2
none_device
  4

  6

 40
0.0
 41
0.0
 42
0.0
 43
0.0
 44
0.0
 45
0.0
 46
0.0
 47
0.0
 48
0.0
 49
0.0
140
0.0
141
0.0
142
1.0
143
1.0
 70
   688
 72
     0
 73
     0
 74
     5
  7

 75
    16
 76
     0
 77
     2
 78
   300
147
1.0
148
0.0
149
0.0
100
AcDbLayout
  1
Layout1
 70
     1
 71
     1
 10
0.0
 20
0.0
 11
12.0
 21
9.0
 12
0.0
 22
0.0
 32
0.0
 14
1.000000000000000E+20
 24
1.000000000000000E+20
 34
1.000000000000000E+20
 15
-1.000000000000000E+20
 25
-1.000000000000000E+20
 35
-1.000000000000000E+20
146
0.0
 13
0.0
 23
0.0
 33
0.0
 16
1.0
 26
0.0
 36
0.0
 17
0.0
 27
1.0
 37
0.0
 76
     0
330
1B
  0
LAYOUT
  5
26
102
{ACAD_REACTORS
330
1A
102
}
330
1A
100
AcDbPlotSettings
  1

  2
none_device
  4

  6

 40
0.0
 41
0.0
 42
0.0
 43
0.0
 44
0.0
 45
0.0
 46
0.0
 47
0.0
 48
0.0
 49
0.0
140
0.0
141
0.0
142
1.0
143
1.0
 70
   688
 72
     0
 73
     0
 74
     5
  7

 75
    16
 76
     0
 77
     2
 78
   300
147
1.0
148
0.0
149
0.0
100
AcDbLayout
  1
Layout2
 70
     1
 71
     2
 10
0.0
 20
0.0
 11
0.0
 21
0.0
 12
0.0
 22
0.0
 32
0.0
 14
0.0
 24
0.0
 34
0.0
 15
0.0
 25
0.0
 35
0.0
146
0.0
 13
0.0
 23
0.0
 33
0.0
 16
1.0
 26
0.0
 36
0.0
 17
0.0
 27
1.0
 37
0.0
 76
     0
330
23
  0
LAYOUT
  5
22
102
{ACAD_REACTORS
330
1A
102
}
330
1A
100
AcDbPlotSettings
  1

  2
none_device
  4

  6

 40
0.0
 41
0.0
 42
0.0
 43
0.0
 44
0.0
 45
0.0
 46
0.0
 47
0.0
 48
0.0
 49
0.0
140
0.0
141
0.0
142
1.0
143
1.0
 70
  1712
 72
     0
 73
     0
 74
     0
  7

 75
     0
 76
     0
 77
     2
 78
   300
147
1.0
148
0.0
149
0.0
100
AcDbLayout
  1
Model
 70
     1
 71
     0
 10
0.0
 20
0.0
 11
12.0
 21
9.0
 12
0.0
 22
0.0
 32
0.0
 14
1.000000000000000E+20
 24
1.000000000000000E+20
 34
1.000000000000000E+20
 15
-1.000000000000000E+20
 25
-1.000000000000000E+20
 35
-1.000000000000000E+20
146
0.0
 13
0.0
 23
0.0
 33
0.0
 16
1.0
 26
0.0
 36
0.0
 17
0.0
 27
1.0
 37
0.0
 76
     0
330
1F
331
29
  0
MLINESTYLE
  5
18
102
{ACAD_REACTORS
330
17
102
}
330
17
100
AcDbMlineStyle
  2
Standard
 70
     0
  3

 62
   256
 51
90.0
 52
90.0
 71
     2
 49
0.5
 62
   256
  6
BYLAYER
 49
-0.5
 62
   256
  6
BYLAYER
  0
ACDBPLACEHOLDER
  5
F
102
{ACAD_REACTORS
330
E
102
}
330
E
  0
VISUALSTYLE
  5
2F
102
{ACAD_REACTORS
330
2A
102
}
330
2A
100
AcDbVisualStyle
  2
2dWireframe
 70
     4
 71
     0
 72
     2
 73
     0
 90
        0
 40
-0.6
 41
-30.0
 62
     5
 63
     7
421
 16777215
 74
     1
 91
        4
 64
     7
 65
   257
 75
     1
175
     1
 42
1.0
 92
        0
 66
   257
 43
1.0
 76
     1
 77
     6
 78
     2
 67
     7
 79
     5
170
     0
171
     0
290
     0
174
     0
 93
        1
 44
0.0
173
     0
291
     0
 45
0.0
1001
ACAD
1000
AcDbSavedByObjectVersion
1070
     0
  0
VISUALSTYLE
  5
31
102
{ACAD_REACTORS
330
2A
102
}
330
2A
100
AcDbVisualStyle
  2
3D Hidden
 70
     6
 71
     1
 72
     2
 73
     2
 90
        0
 40
-0.6
 41
-30.0
 62
     5
 63
     7
421
 16777215
 74
     2
 91
        2
 64
     7
 65
   257
 75
     2
175
     1
 42
40.0
 92
        0
 66
   257
 43
1.0
 76
     1
 77
     6
 78
     2
 67
     7
 79
     3
170
     0
171
     0
290
     0
174
     0
 93
        1
 44
0.0
173
     0
291
     0
 45
0.0
1001
ACAD
1000
AcDbSavedByObjectVersion
1070
     0
  0
VISUALSTYLE
  5
30
102
{ACAD_REACTORS
330
2A
102
}
330
2A
100
AcDbVisualStyle
  2
3dWireframe
 70
     5
 71
     0
 72
     2
 73
     0
 90
        0
 40
-0.6
 41
-30.0
 62
     5
 63
     7
421
 16777215
 74
     1
 91
        4
 64
     7
 65
   257
 75
     1
175
     1
 42
1.0
 92
        0
 66
   257
 43
1.0
 76
     1
 77
     6
 78
     2
 67
     7
 79
     5
170
     0
171
     0
290
     0
174
     0
 93
        1
 44
0.0
173
     0
291
     0
 45
0.0
1001
ACAD
1000
AcDbSavedByObjectVersion
1070
     0
  0
VISUALSTYLE
  5
32
102
{ACAD_REACTORS
330
2A
102
}
330
2A
100
AcDbVisualStyle
  2
Basic
 70
     7
 71
     1
 72
     0
 73
     1
 90
        0
 40
-0.6
 41
-30.0
 62
     5
 63
     7
421
 16777215
 74
     0
 91
        4
 64
     7
 65
   257
 75
     1
175
     1
 42
1.0
 92
        8
 66
     7
 43
1.0
 76
     1
 77
     6
 78
     2
 67
     7
 79
     5
170
     0
171
     0
290
     0
174
     0
 93
        1
 44
0.0
173
     0
291
     1
 45
0.0
1001
ACAD
1000
AcDbSavedByObjectVersion
1070
     0
  0
VISUALSTYLE
  5
36
102
{ACAD_REACTORS
330
2A
102
}
330
2A
100
AcDbVisualStyle
  2
Brighten
 70
    12
 71
     2
 72
     2
 73
     0
 90
        0
 40
-0.6
 41
-30.0
 62
     5
 63
     7
421
 16777215
 74
     1
 91
        4
 64
     7
 65
   257
 75
     1
175
     1
 42
1.0
 92
        8
 66
     7
 43
1.0
 76
     1
 77
     6
 78
     2
 67
     7
 79
     5
170
     0
171
     0
290
     0
174
     0
 93
        1
 44
50.0
173
     0
291
     1
 45
0.0
1001
ACAD
1000
AcDbSavedByObjectVersion
1070
     0
  0
VISUALSTYLE
  5
3A
102
{ACAD_REACTORS
330
2A
102
}
330
2A
100
AcDbVisualStyle
  2
ColorChange
 70
    16
 71
     2
 72
     2
 73
     3
 90
        0
 40
-0.6
 41
-30.0
 62
     5
 63
     8
421
  8421504
 74
     1
 91
        4
 64
     7
 65
   257
 75
     1
175
     1
 42
1.0
 92
        8
 66
     8
424
  8421504
 43
1.0
 76
     1
 77
     6
 78
     2
 67
     7
 79
     5
170
     0
171
     0
290
     0
174
     0
 93
        1
 44
0.0
173
     0
291
     1
 45
0.0
1001
ACAD
1000
AcDbSavedByObjectVersion
1070
     0
  0
VISUALSTYLE
  5
34
102
{ACAD_REACTORS
330
2A
102
}
330
2A
100
AcDbVisualStyle
  2
Conceptual
 70
     9
 71
     3
 72
     2
 73
     0
 90
        0
 40
-0.6
 41
-30.0
 62
     5
 63
     7
421
 16777215
 74
     2
 91
        2
 64
     7
 65
   257
 75
     1
175
     1
 42
40.0
 92
        8
 66
     7
 43
1.0
 76
     1
 77
     6
 78
     2
 67
     7
 79
     3
170
     0
171
     0
290
     0
174
     0
 93
        1
 44
0.0
173
     0
291
     0
 45
0.0
1001
ACAD
1000
AcDbSavedByObjectVersion
1070
     0
  0
VISUALSTYLE
  5
35
102
{ACAD_REACTORS
330
2A
102
}
330
2A
100
AcDbVisualStyle
  2
Dim
 70
    11
 71
     2
 72
     2
 73
     0
 90
        0
 40
-0.6
 41
-30.0
 62
     5
 63
     7
421
 16777215
 74
     1
 91
        4
 64
     7
 65
   257
 75
     1
175
     1
 42
1.0
 92
        8
 66
     7
 43
1.0
 76
     1
 77
     6
 78
     2
 67
     7
 79
     5
170
     0
171
     0
290
     0
174
     0
 93
        1
 44
-50.0
173
     0
291
     1
 45
0.0
1001
ACAD
1000
AcDbSavedByObjectVersion
1070
     0
  0
VISUALSTYLE
  5
39
102
{ACAD_REACTORS
330
2A
102
}
330
2A
100
AcDbVisualStyle
  2
Facepattern
 70
    15
 71
     2
 72
     2
 73
     0
 90
        0
 40
-0.6
 41
-30.0
 62
     5
 63
     7
421
 16777215
 74
     1
 91
        4
 64
     7
 65
   257
 75
     1
175
     1
 42
1.0
 92
        8
 66
     7
 43
1.0
 76
     1
 77
     6
 78
     2
 67
     7
 79
     5
170
     0
171
     0
290
     0
174
     0
 93
        1
 44
0.0
173
     0
291
     1
 45
0.0
1001
ACAD
1000
AcDbSavedByObjectVersion
1070
     0
  0
VISUALSTYLE
  5
2B
102
{ACAD_REACTORS
330
2A
102
}
330
2A
100
AcDbVisualStyle
  2
Flat
 70
     0
 71
     2
 72
     1
 73
     1
 90
        2
 40
-0.6
 41
30.0
 62
     5
 63
     7
421
 16777215
 74
     0
 91
        4
 64
     7
 65
   257
 75
     1
175
     1
 42
1.0
 92
        8
 66
     7
 43
1.0
 76
     1
 77
     6
 78
     2
 67
     7
 79
     5
170
     0
171
     0
290
     0
174
     0
 93
       13
 44
0.0
173
     0
291
     1
 45
0.0
1001
ACAD
1000
AcDbSavedByObjectVersion
1070
     0
  0
VISUALSTYLE
  5
2C
102
{ACAD_REACTORS
330
2A
102
}
330
2A
100
AcDbVisualStyle
  2
FlatWithEdges
 70
     1
 71
     2
 72
     1
 73
     1
 90
        2
 40
-0.6
 41
30.0
 62
     5
 63
     7
421
 16777215
 74
     1
 91
        4
 64
     7
 65
   257
 75
     1
175
     1
 42
1.0
 92
        0
 66
   257
 43
1.0
 76
     1
 77
     6
 78
     2
 67
     7
 79
     5
170
     0
171
     0
290
     0
174
     0
 93
       13
 44
0.0
173
     0
291
     1
 45
0.0
1001
ACAD
1000
AcDbSavedByObjectVersion
1070
     0
  0
VISUALSTYLE
  5
2D
102
{ACAD_REACTORS
330
2A
102
}
330
2A
100
AcDbVisualStyle
  2
Gouraud
 70
     2
 71
     2
 72
     2
 73
     1
 90
        2
 40
-0.6
 41
30.0
 62
     5
 63
     7
421
 16777215
 74
     0
 91
        4
 64
     7
 65
   257
 75
     1
175
     1
 42
1.0
 92
        0
 66
     7
 43
1.0
 76
     1
 77
     6
 78
     2
 67
     7
 79
     5
170
     0
171
     0
290
     0
174
     0
 93
       13
 44
0.0
173
     0
291
     1
 45
0.0
1001
ACAD
1000
AcDbSavedByObjectVersion
1070
     0
  0
VISUALSTYLE
  5
2E
102
{ACAD_REACTORS
330
2A
102
}
330
2A
100
AcDbVisualStyle
  2
GouraudWithEdges
 70
     3
 71
     2
 72
     2
 73
     1
 90
        2
 40
-0.6
 41
30.0
 62
     5
 63
     7
421
 16777215
 74
     1
 91
        4
 64
     7
 65
   257
 75
     1
175
     1
 42
1.0
 92
        0
 66
   257
 43
1.0
 76
     1
 77
     6
 78
     2
 67
     7
 79
     5
170
     0
171
     0
290
     0
174
     0
 93
       13
 44
0.0
173
     0
291
     1
 45
0.0
1001
ACAD
1000
AcDbSavedByObjectVersion
1070
     0
  0
VISUALSTYLE
  5
38
102
{ACAD_REACTORS
330
2A
102
}
330
2A
100
AcDbVisualStyle
  2
Linepattern
 70
    14
 71
     2
 72
     2
 73
     0
 90
        0
 40
-0.6
 41
-30.0
 62
     5
 63
     7
421
 16777215
 74
     1
 91
        4
 64
     7
 65
   257
 75
     7
175
     7
 42
1.0
 92
        8
 66
     7
 43
1.0
 76
     1
 77
     6
 78
     2
 67
     7
 79
     5
170
     0
171
     0
290
     0
174
     0
 93
        1
 44
0.0
173
     0
291
     1
 45
0.0
1001
ACAD
1000
AcDbSavedByObjectVersion
1070
     0
  0
VISUALSTYLE
  5
33
102
{ACAD_REACTORS
330
2A
102
}
330
2A
100
AcDbVisualStyle
  2
Realistic
 70
     8
 71
     2
 72
     2
 73
     0
 90
        0
 40
-0.6
 41
-30.0
 62
     5
 63
     7
421
 16777215
 74
     1
 91
        0
 64
     7
 65
   257
 75
     1
175
     1
 42
1.0
 92
        8
 66
     8
424
  7895160
 43
1.0
 76
     1
 77
     6
 78
     2
 67
     7
 79
     5
170
     0
171
     0
290
     0
174
     0
 93
       13
 44
0.0
173
     0
291
     0
 45
0.0
1001
ACAD
1000
AcDbSavedByObjectVersion
1070
     0
  0
VISUALSTYLE
  5
37
102
{ACAD_REACTORS
330
2A
102
}
330
2A
100
AcDbVisualStyle
  2
Thicken
 70
    13
 71
     2
 72
     2
 73
     0
 90
        0
 40
-0.6
 41
-30.0
 62
     5
 63
     7
421
 16777215
 74
     1
 91
        4
 64
     7
 65
   257
 75
     1
175
     1
 42
1.0
 92
       12
 66
     7
 43
1.0
 76
     1
 77
     6
 78
     2
 67
     7
 79
     5
170
     0
171
     0
290
     0
174
     0
 93
        1
 44
0.0
173
     0
291
     1
 45
0.0
1001
ACAD
1000
AcDbSavedByObjectVersion
1070
     0
  0
ENDSEC
  0
EOF
